ISO-10303-21;
HEADER;
FILE_DESCRIPTION (( 'STEP AP214' ),
    '1' );
FILE_NAME ('A_42,4x2-3000.STEP',
    '2021-03-08T12:42:21',
    ( '' ),
    ( '' ),
    'SwSTEP 2.0',
    'SolidWorks 2019',
    '' );
FILE_SCHEMA (( 'AUTOMOTIVE_DESIGN' ));
ENDSEC;

DATA;
#1 = CYLINDRICAL_SURFACE ( 'NONE', #120, 19.20000000000000284 ) ;
#2 = CIRCLE ( 'NONE', #41, 19.20000000000000284 ) ;
#3 = SURFACE_STYLE_FILL_AREA ( #127 ) ;
#4 = PRODUCT_DEFINITION_FORMATION_WITH_SPECIFIED_SOURCE ( 'LIBOVOLNÝ', '', #164, .NOT_KNOWN. ) ;
#5 = ORIENTED_EDGE ( 'NONE', *, *, #26, .T. ) ;
#6 = ORIENTED_EDGE ( 'NONE', *, *, #118, .T. ) ;
#7 = PLANE ( 'NONE',  #14 ) ;
#8 = EDGE_CURVE ( 'NONE', #180, #169, #187, .T. ) ;
#9 = VECTOR ( 'NONE', #94, 1000.000000000000000 ) ;
#10 = APPLICATION_CONTEXT ( 'automotive_design' ) ;
#11 = CIRCLE ( 'NONE', #201, 21.20000000000000284 ) ;
#12 = ORIENTED_EDGE ( 'NONE', *, *, #18, .T. ) ;
#13 = DIRECTION ( 'NONE',  ( 1.000000000000000000, 0.000000000000000000, 0.000000000000000000 ) ) ;
#14 = AXIS2_PLACEMENT_3D ( 'NONE', #52, #65, #193 ) ;
#15 = DIRECTION ( 'NONE',  ( 0.000000000000000000, 0.000000000000000000, 1.000000000000000000 ) ) ;
#16 = APPLICATION_PROTOCOL_DEFINITION ( 'draft international standard', 'automotive_design', 1998, #10 ) ;
#17 = VERTEX_POINT ( 'NONE', #155 ) ;
#18 = EDGE_CURVE ( 'NONE', #180, #103, #211, .T. ) ;
#19 = PRODUCT_CONTEXT ( 'NONE', #173, 'mechanical' ) ;
#20 = ORIENTED_EDGE ( 'NONE', *, *, #32, .F. ) ;
#21 = FACE_BOUND ( 'NONE', #196, .T. ) ;
#22 = CARTESIAN_POINT ( 'NONE',  ( -19.20000000000000284, 0.000000000000000000, 0.000000000000000000 ) ) ;
#23 = VERTEX_POINT ( 'NONE', #31 ) ;
#24 = DIRECTION ( 'NONE',  ( -0.000000000000000000, -0.000000000000000000, -1.000000000000000000 ) ) ;
#25 = DIRECTION ( 'NONE',  ( -0.000000000000000000, -0.000000000000000000, -1.000000000000000000 ) ) ;
#26 = EDGE_CURVE ( 'NONE', #17, #23, #191, .T. ) ;
#27 = FACE_OUTER_BOUND ( 'NONE', #29, .T. ) ;
#28 = DIRECTION ( 'NONE',  ( 1.000000000000000000, 0.000000000000000000, 0.000000000000000000 ) ) ;
#29 = EDGE_LOOP ( 'NONE', ( #20, #5, #204, #113 ) ) ;
#30 = AXIS2_PLACEMENT_3D ( 'NONE', #63, #138, #208 ) ;
#31 = CARTESIAN_POINT ( 'NONE',  ( -19.20000000000000284, 0.000000000000000000, 3000.000000000000000 ) ) ;
#32 = EDGE_CURVE ( 'NONE', #17, #166, #76, .T. ) ;
#33 = DIRECTION ( 'NONE',  ( -0.000000000000000000, -0.000000000000000000, -1.000000000000000000 ) ) ;
#34 = CARTESIAN_POINT ( 'NONE',  ( 21.20000000000000284, 2.596251214192389164E-15, 3000.000000000000000 ) ) ;
#35 = DIRECTION ( 'NONE',  ( 0.000000000000000000, 0.000000000000000000, 1.000000000000000000 ) ) ;
#36 =( NAMED_UNIT ( * ) PLANE_ANGLE_UNIT ( ) SI_UNIT ( $, .RADIAN. ) );
#37 = SURFACE_SIDE_STYLE ('',( #38 ) ) ;
#38 = SURFACE_STYLE_FILL_AREA ( #116 ) ;
#39 = ADVANCED_FACE ( 'NONE', ( #205 ), #184, .T. ) ;
#40 = SURFACE_STYLE_USAGE ( .BOTH. , #55 ) ;
#41 = AXIS2_PLACEMENT_3D ( 'NONE', #144, #156, #109 ) ;
#42 = UNCERTAINTY_MEASURE_WITH_UNIT (LENGTH_MEASURE( 1.000000000000000082E-05 ), #147, 'distance_accuracy_value', 'NONE');
#43 = MECHANICAL_DESIGN_GEOMETRIC_PRESENTATION_REPRESENTATION (  '', ( #154 ), #69 ) ;
#44 = UNCERTAINTY_MEASURE_WITH_UNIT (LENGTH_MEASURE( 1.000000000000000082E-05 ), #110, 'distance_accuracy_value', 'NONE');
#45 = CARTESIAN_POINT ( 'NONE',  ( -21.20000000000000284, 0.000000000000000000, 3000.000000000000000 ) ) ;
#46 = DIRECTION ( 'NONE',  ( 1.000000000000000000, 0.000000000000000000, -0.000000000000000000 ) ) ;
#47 = MECHANICAL_DESIGN_GEOMETRIC_PRESENTATION_REPRESENTATION (  '', ( #88 ), #75 ) ;
#48 = DIRECTION ( 'NONE',  ( -0.000000000000000000, -0.000000000000000000, -1.000000000000000000 ) ) ;
#49 = CARTESIAN_POINT ( 'NONE',  ( 0.000000000000000000, 0.000000000000000000, 0.000000000000000000 ) ) ;
#50 = PLANE ( 'NONE',  #93 ) ;
#51 = DIRECTION ( 'NONE',  ( -1.000000000000000000, 0.000000000000000000, 0.000000000000000000 ) ) ;
#52 = CARTESIAN_POINT ( 'NONE',  ( 0.000000000000000000, 0.000000000000000000, 3000.000000000000000 ) ) ;
#53 = DIRECTION ( 'NONE',  ( 1.000000000000000000, 0.000000000000000000, 0.000000000000000000 ) ) ;
#54 =( LENGTH_UNIT ( ) NAMED_UNIT ( * ) SI_UNIT ( .MILLI., .METRE. ) );
#55 = SURFACE_SIDE_STYLE ('',( #3 ) ) ;
#56 = EDGE_LOOP ( 'NONE', ( #135, #199, #89, #70 ) ) ;
#57 =( NAMED_UNIT ( * ) SI_UNIT ( $, .STERADIAN. ) SOLID_ANGLE_UNIT ( ) );
#58 = ORIENTED_EDGE ( 'NONE', *, *, #83, .T. ) ;
#59 =( GEOMETRIC_REPRESENTATION_CONTEXT ( 3 ) GLOBAL_UNCERTAINTY_ASSIGNED_CONTEXT ( ( #44 ) ) GLOBAL_UNIT_ASSIGNED_CONTEXT ( ( #110, #115, #177 ) ) REPRESENTATION_CONTEXT ( 'NONE', 'WORKASPACE' ) );
#60 = CARTESIAN_POINT ( 'NONE',  ( 19.20000000000000284, 2.351321854362918079E-15, 3000.000000000000000 ) ) ;
#61 = UNCERTAINTY_MEASURE_WITH_UNIT (LENGTH_MEASURE( 1.000000000000000082E-05 ), #54, 'distance_accuracy_value', 'NONE');
#62 = ORIENTED_EDGE ( 'NONE', *, *, #32, .T. ) ;
#63 = CARTESIAN_POINT ( 'NONE',  ( 0.000000000000000000, 0.000000000000000000, 3000.000000000000000 ) ) ;
#64 = PRESENTATION_LAYER_ASSIGNMENT (  '', '', ( #154 ) ) ;
#65 = DIRECTION ( 'NONE',  ( 0.000000000000000000, 0.000000000000000000, 1.000000000000000000 ) ) ;
#66 = FACE_OUTER_BOUND ( 'NONE', #158, .T. ) ;
#67 = DIRECTION ( 'NONE',  ( 0.000000000000000000, 0.000000000000000000, 1.000000000000000000 ) ) ;
#68 = EDGE_CURVE ( 'NONE', #197, #166, #2, .T. ) ;
#69 =( GEOMETRIC_REPRESENTATION_CONTEXT ( 3 ) GLOBAL_UNCERTAINTY_ASSIGNED_CONTEXT ( ( #42 ) ) GLOBAL_UNIT_ASSIGNED_CONTEXT ( ( #147, #87, #111 ) ) REPRESENTATION_CONTEXT ( 'NONE', 'WORKASPACE' ) );
#70 = ORIENTED_EDGE ( 'NONE', *, *, #168, .T. ) ;
#71 = ORIENTED_EDGE ( 'NONE', *, *, #168, .F. ) ;
#72 = DIRECTION ( 'NONE',  ( -0.000000000000000000, -0.000000000000000000, -1.000000000000000000 ) ) ;
#73 = CARTESIAN_POINT ( 'NONE',  ( 21.20000000000000284, 2.596251214192389164E-15, 0.000000000000000000 ) ) ;
#74 = EDGE_CURVE ( 'NONE', #103, #180, #11, .T. ) ;
#75 =( GEOMETRIC_REPRESENTATION_CONTEXT ( 3 ) GLOBAL_UNCERTAINTY_ASSIGNED_CONTEXT ( ( #61 ) ) GLOBAL_UNIT_ASSIGNED_CONTEXT ( ( #54, #36, #57 ) ) REPRESENTATION_CONTEXT ( 'NONE', 'WORKASPACE' ) );
#76 = LINE ( 'NONE', #60, #9 ) ;
#77 = DIRECTION ( 'NONE',  ( 1.000000000000000000, 0.000000000000000000, 0.000000000000000000 ) ) ;
#78 = AXIS2_PLACEMENT_3D ( 'NONE', #159, #72, #51 ) ;
#79 = FACE_OUTER_BOUND ( 'NONE', #207, .T. ) ;
#80 = COLOUR_RGB ( '',0.6156862745098039547, 0.6431372549019607199, 0.6745098039215686736 ) ;
#81 = DIRECTION ( 'NONE',  ( 1.000000000000000000, 0.000000000000000000, 0.000000000000000000 ) ) ;
#82 = DIRECTION ( 'NONE',  ( 0.000000000000000000, 0.000000000000000000, 1.000000000000000000 ) ) ;
#83 = EDGE_CURVE ( 'NONE', #166, #197, #141, .T. ) ;
#84 = CARTESIAN_POINT ( 'NONE',  ( 0.000000000000000000, 0.000000000000000000, 3000.000000000000000 ) ) ;
#85 = ORIENTED_EDGE ( 'NONE', *, *, #68, .F. ) ;
#86 = LINE ( 'NONE', #102, #97 ) ;
#87 =( NAMED_UNIT ( * ) PLANE_ANGLE_UNIT ( ) SI_UNIT ( $, .RADIAN. ) );
#88 = STYLED_ITEM ( 'NONE', ( #99 ), #183 ) ;
#89 = ORIENTED_EDGE ( 'NONE', *, *, #8, .T. ) ;
#90 = ORIENTED_EDGE ( 'NONE', *, *, #133, .F. ) ;
#91 = DIRECTION ( 'NONE',  ( 0.000000000000000000, 0.000000000000000000, 1.000000000000000000 ) ) ;
#92 = CLOSED_SHELL ( 'NONE', ( #213, #108, #126, #96, #39, #194 ) ) ;
#93 = AXIS2_PLACEMENT_3D ( 'NONE', #189, #107, #46 ) ;
#94 = DIRECTION ( 'NONE',  ( -0.000000000000000000, -0.000000000000000000, -1.000000000000000000 ) ) ;
#95 = CARTESIAN_POINT ( 'NONE',  ( 0.000000000000000000, 0.000000000000000000, 3000.000000000000000 ) ) ;
#96 = ADVANCED_FACE ( 'NONE', ( #66, #174 ), #50, .F. ) ;
#97 = VECTOR ( 'NONE', #25, 1000.000000000000000 ) ;
#98 = ORIENTED_EDGE ( 'NONE', *, *, #176, .F. ) ;
#99 = PRESENTATION_STYLE_ASSIGNMENT (( #198 ) ) ;
#100 = ORIENTED_EDGE ( 'NONE', *, *, #118, .F. ) ;
#101 = AXIS2_PLACEMENT_3D ( 'NONE', #84, #67, #53 ) ;
#102 = CARTESIAN_POINT ( 'NONE',  ( -19.20000000000000284, 0.000000000000000000, 3000.000000000000000 ) ) ;
#103 = VERTEX_POINT ( 'NONE', #34 ) ;
#104 = AXIS2_PLACEMENT_3D ( 'NONE', #95, #150, #153 ) ;
#105 = CARTESIAN_POINT ( 'NONE',  ( 0.000000000000000000, 0.000000000000000000, 0.000000000000000000 ) ) ;
#106 = CARTESIAN_POINT ( 'NONE',  ( 0.000000000000000000, 0.000000000000000000, 3000.000000000000000 ) ) ;
#107 = DIRECTION ( 'NONE',  ( 0.000000000000000000, 0.000000000000000000, 1.000000000000000000 ) ) ;
#108 = ADVANCED_FACE ( 'NONE', ( #79 ), #136, .T. ) ;
#109 = DIRECTION ( 'NONE',  ( 1.000000000000000000, 0.000000000000000000, 0.000000000000000000 ) ) ;
#110 =( LENGTH_UNIT ( ) NAMED_UNIT ( * ) SI_UNIT ( .MILLI., .METRE. ) );
#111 =( NAMED_UNIT ( * ) SI_UNIT ( $, .STERADIAN. ) SOLID_ANGLE_UNIT ( ) );
#112 = APPLICATION_PROTOCOL_DEFINITION ( 'draft international standard', 'automotive_design', 1998, #173 ) ;
#113 = ORIENTED_EDGE ( 'NONE', *, *, #83, .F. ) ;
#114 = CIRCLE ( 'NONE', #185, 21.20000000000000284 ) ;
#115 =( NAMED_UNIT ( * ) PLANE_ANGLE_UNIT ( ) SI_UNIT ( $, .RADIAN. ) );
#116 = FILL_AREA_STYLE ('',( #179 ) ) ;
#117 = ORIENTED_EDGE ( 'NONE', *, *, #26, .F. ) ;
#118 = EDGE_CURVE ( 'NONE', #23, #17, #124, .T. ) ;
#119 = MANIFOLD_SOLID_BREP ( 'Vysunout tenkostìnný1', #92 ) ;
#120 = AXIS2_PLACEMENT_3D ( 'NONE', #125, #128, #145 ) ;
#121 = EDGE_LOOP ( 'NONE', ( #12, #122 ) ) ;
#122 = ORIENTED_EDGE ( 'NONE', *, *, #74, .T. ) ;
#123 = CARTESIAN_POINT ( 'NONE',  ( 0.000000000000000000, 0.000000000000000000, 3000.000000000000000 ) ) ;
#124 = CIRCLE ( 'NONE', #101, 19.20000000000000284 ) ;
#125 = CARTESIAN_POINT ( 'NONE',  ( 0.000000000000000000, 0.000000000000000000, 3000.000000000000000 ) ) ;
#126 = ADVANCED_FACE ( 'NONE', ( #146, #21 ), #7, .T. ) ;
#127 = FILL_AREA_STYLE ('',( #178 ) ) ;
#128 = DIRECTION ( 'NONE',  ( -0.000000000000000000, -0.000000000000000000, -1.000000000000000000 ) ) ;
#129 = CYLINDRICAL_SURFACE ( 'NONE', #78, 19.20000000000000284 ) ;
#130 = ORIENTED_EDGE ( 'NONE', *, *, #74, .F. ) ;
#131 = AXIS2_PLACEMENT_3D ( 'NONE', #105, #35, #81 ) ;
#132 = FACE_OUTER_BOUND ( 'NONE', #202, .T. ) ;
#133 = EDGE_CURVE ( 'NONE', #162, #169, #182, .T. ) ;
#134 = ORIENTED_EDGE ( 'NONE', *, *, #68, .T. ) ;
#135 = ORIENTED_EDGE ( 'NONE', *, *, #152, .F. ) ;
#136 = CYLINDRICAL_SURFACE ( 'NONE', #30, 21.20000000000000284 ) ;
#137 = CARTESIAN_POINT ( 'NONE',  ( 0.000000000000000000, 0.000000000000000000, 0.000000000000000000 ) ) ;
#138 = DIRECTION ( 'NONE',  ( -0.000000000000000000, -0.000000000000000000, -1.000000000000000000 ) ) ;
#139 = VECTOR ( 'NONE', #33, 1000.000000000000000 ) ;
#140 = DIRECTION ( 'NONE',  ( -1.000000000000000000, 0.000000000000000000, 0.000000000000000000 ) ) ;
#141 = CIRCLE ( 'NONE', #192, 19.20000000000000284 ) ;
#142 = DIRECTION ( 'NONE',  ( 1.000000000000000000, 0.000000000000000000, 0.000000000000000000 ) ) ;
#143 = DIRECTION ( 'NONE',  ( 0.000000000000000000, 0.000000000000000000, 1.000000000000000000 ) ) ;
#144 = CARTESIAN_POINT ( 'NONE',  ( 0.000000000000000000, 0.000000000000000000, 0.000000000000000000 ) ) ;
#145 = DIRECTION ( 'NONE',  ( -1.000000000000000000, 0.000000000000000000, 0.000000000000000000 ) ) ;
#146 = FACE_OUTER_BOUND ( 'NONE', #121, .T. ) ;
#147 =( LENGTH_UNIT ( ) NAMED_UNIT ( * ) SI_UNIT ( .MILLI., .METRE. ) );
#148 = LINE ( 'NONE', #149, #157 ) ;
#149 = CARTESIAN_POINT ( 'NONE',  ( 21.20000000000000284, 2.596251214192389164E-15, 3000.000000000000000 ) ) ;
#150 = DIRECTION ( 'NONE',  ( 0.000000000000000000, 0.000000000000000000, 1.000000000000000000 ) ) ;
#151 = AXIS2_PLACEMENT_3D ( 'NONE', #161, #91, #214 ) ;
#152 = EDGE_CURVE ( 'NONE', #103, #162, #148, .T. ) ;
#153 = DIRECTION ( 'NONE',  ( 1.000000000000000000, 0.000000000000000000, 0.000000000000000000 ) ) ;
#154 = STYLED_ITEM ( 'NONE', ( #163 ), #119 ) ;
#155 = CARTESIAN_POINT ( 'NONE',  ( 19.20000000000000284, 2.351321854362918079E-15, 3000.000000000000000 ) ) ;
#156 = DIRECTION ( 'NONE',  ( 0.000000000000000000, 0.000000000000000000, 1.000000000000000000 ) ) ;
#157 = VECTOR ( 'NONE', #24, 1000.000000000000000 ) ;
#158 = EDGE_LOOP ( 'NONE', ( #71, #90 ) ) ;
#159 = CARTESIAN_POINT ( 'NONE',  ( 0.000000000000000000, 0.000000000000000000, 3000.000000000000000 ) ) ;
#160 = ORIENTED_EDGE ( 'NONE', *, *, #133, .T. ) ;
#161 = CARTESIAN_POINT ( 'NONE',  ( 0.000000000000000000, 0.000000000000000000, 0.000000000000000000 ) ) ;
#162 = VERTEX_POINT ( 'NONE', #73 ) ;
#163 = PRESENTATION_STYLE_ASSIGNMENT (( #40 ) ) ;
#164 = PRODUCT ( 'A_42,4x2-3000', 'A_42,4x2-3000', '', ( #19 ) ) ;
#165 = PRODUCT_DEFINITION_SHAPE ( 'NONE', 'NONE',  #210 ) ;
#166 = VERTEX_POINT ( 'NONE', #172 ) ;
#167 = PRODUCT_DEFINITION_CONTEXT ( 'detailed design', #10, 'design' ) ;
#168 = EDGE_CURVE ( 'NONE', #169, #162, #114, .T. ) ;
#169 = VERTEX_POINT ( 'NONE', #206 ) ;
#170 = ORIENTED_EDGE ( 'NONE', *, *, #152, .T. ) ;
#171 = COLOUR_RGB ( '',0.6156862745098039547, 0.6431372549019607199, 0.6745098039215686736 ) ;
#172 = CARTESIAN_POINT ( 'NONE',  ( 19.20000000000000284, 2.351321854362918079E-15, 0.000000000000000000 ) ) ;
#173 = APPLICATION_CONTEXT ( 'automotive_design' ) ;
#174 = FACE_BOUND ( 'NONE', #209, .T. ) ;
#175 = CARTESIAN_POINT ( 'NONE',  ( -21.20000000000000284, 0.000000000000000000, 3000.000000000000000 ) ) ;
#176 = EDGE_CURVE ( 'NONE', #23, #197, #86, .T. ) ;
#177 =( NAMED_UNIT ( * ) SI_UNIT ( $, .STERADIAN. ) SOLID_ANGLE_UNIT ( ) );
#178 = FILL_AREA_STYLE_COLOUR ( '', #80 ) ;
#179 = FILL_AREA_STYLE_COLOUR ( '', #171 ) ;
#180 = VERTEX_POINT ( 'NONE', #175 ) ;
#181 = AXIS2_PLACEMENT_3D ( 'NONE', #106, #48, #140 ) ;
#182 = CIRCLE ( 'NONE', #131, 21.20000000000000284 ) ;
#183 = ADVANCED_BREP_SHAPE_REPRESENTATION ( 'A_42,4x2-3000', ( #119, #151 ), #59 ) ;
#184 = CYLINDRICAL_SURFACE ( 'NONE', #181, 21.20000000000000284 ) ;
#185 = AXIS2_PLACEMENT_3D ( 'NONE', #49, #143, #77 ) ;
#186 = ORIENTED_EDGE ( 'NONE', *, *, #8, .F. ) ;
#187 = LINE ( 'NONE', #45, #139 ) ;
#188 = PRODUCT_RELATED_PRODUCT_CATEGORY ( 'part', '', ( #164 ) ) ;
#189 = CARTESIAN_POINT ( 'NONE',  ( 0.000000000000000000, 0.000000000000000000, 0.000000000000000000 ) ) ;
#190 = DIRECTION ( 'NONE',  ( 0.000000000000000000, 0.000000000000000000, 1.000000000000000000 ) ) ;
#191 = CIRCLE ( 'NONE', #104, 19.20000000000000284 ) ;
#192 = AXIS2_PLACEMENT_3D ( 'NONE', #137, #82, #142 ) ;
#193 = DIRECTION ( 'NONE',  ( 1.000000000000000000, 0.000000000000000000, -0.000000000000000000 ) ) ;
#194 = ADVANCED_FACE ( 'NONE', ( #27 ), #129, .F. ) ;
#195 = SHAPE_DEFINITION_REPRESENTATION ( #165, #183 ) ;
#196 = EDGE_LOOP ( 'NONE', ( #100, #117 ) ) ;
#197 = VERTEX_POINT ( 'NONE', #22 ) ;
#198 = SURFACE_STYLE_USAGE ( .BOTH. , #37 ) ;
#199 = ORIENTED_EDGE ( 'NONE', *, *, #18, .F. ) ;
#200 = AXIS2_PLACEMENT_3D ( 'NONE', #123, #190, #28 ) ;
#201 = AXIS2_PLACEMENT_3D ( 'NONE', #212, #15, #13 ) ;
#202 = EDGE_LOOP ( 'NONE', ( #6, #62, #85, #98 ) ) ;
#203 = PRESENTATION_LAYER_ASSIGNMENT (  '', '', ( #88 ) ) ;
#204 = ORIENTED_EDGE ( 'NONE', *, *, #176, .T. ) ;
#205 = FACE_OUTER_BOUND ( 'NONE', #56, .T. ) ;
#206 = CARTESIAN_POINT ( 'NONE',  ( -21.20000000000000284, 0.000000000000000000, 0.000000000000000000 ) ) ;
#207 = EDGE_LOOP ( 'NONE', ( #130, #170, #160, #186 ) ) ;
#208 = DIRECTION ( 'NONE',  ( -1.000000000000000000, 0.000000000000000000, 0.000000000000000000 ) ) ;
#209 = EDGE_LOOP ( 'NONE', ( #134, #58 ) ) ;
#210 = PRODUCT_DEFINITION ( 'NEZNÁMÝ', '', #4, #167 ) ;
#211 = CIRCLE ( 'NONE', #200, 21.20000000000000284 ) ;
#212 = CARTESIAN_POINT ( 'NONE',  ( 0.000000000000000000, 0.000000000000000000, 3000.000000000000000 ) ) ;
#213 = ADVANCED_FACE ( 'NONE', ( #132 ), #1, .F. ) ;
#214 = DIRECTION ( 'NONE',  ( 1.000000000000000000, 0.000000000000000000, 0.000000000000000000 ) ) ;
ENDSEC;
END-ISO-10303-21;
