ISO-10303-21;
HEADER;
FILE_DESCRIPTION (( 'STEP AP214' ),
    '1' );
FILE_NAME ('A_42,4x2-2000.STEP',
    '2021-03-08T12:43:27',
    ( '' ),
    ( '' ),
    'SwSTEP 2.0',
    'SolidWorks 2019',
    '' );
FILE_SCHEMA (( 'AUTOMOTIVE_DESIGN' ));
ENDSEC;

DATA;
#1 = CARTESIAN_POINT ( 'NONE',  ( 0.000000000000000000, 0.000000000000000000, 0.000000000000000000 ) ) ;
#2 = AXIS2_PLACEMENT_3D ( 'NONE', #213, #181, #106 ) ;
#3 = ORIENTED_EDGE ( 'NONE', *, *, #212, .F. ) ;
#4 = COLOUR_RGB ( '',0.6156862745098039547, 0.6431372549019607199, 0.6745098039215686736 ) ;
#5 = EDGE_LOOP ( 'NONE', ( #33, #121 ) ) ;
#6 = DIRECTION ( 'NONE',  ( 1.000000000000000000, 0.000000000000000000, 0.000000000000000000 ) ) ;
#7 = LINE ( 'NONE', #73, #214 ) ;
#8 = AXIS2_PLACEMENT_3D ( 'NONE', #199, #29, #17 ) ;
#9 = CARTESIAN_POINT ( 'NONE',  ( 21.20000000000000284, 2.596251214192389164E-15, 0.000000000000000000 ) ) ;
#10 = EDGE_LOOP ( 'NONE', ( #3, #117 ) ) ;
#11 = AXIS2_PLACEMENT_3D ( 'NONE', #159, #144, #103 ) ;
#12 = DIRECTION ( 'NONE',  ( 0.000000000000000000, 0.000000000000000000, 1.000000000000000000 ) ) ;
#13 = PRODUCT_DEFINITION_SHAPE ( 'NONE', 'NONE',  #64 ) ;
#14 = CARTESIAN_POINT ( 'NONE',  ( 19.20000000000000284, 2.351321854362918079E-15, 0.000000000000000000 ) ) ;
#15 = DIRECTION ( 'NONE',  ( -0.000000000000000000, -0.000000000000000000, -1.000000000000000000 ) ) ;
#16 = DIRECTION ( 'NONE',  ( 1.000000000000000000, 0.000000000000000000, -0.000000000000000000 ) ) ;
#17 = DIRECTION ( 'NONE',  ( 1.000000000000000000, 0.000000000000000000, 0.000000000000000000 ) ) ;
#18 = EDGE_CURVE ( 'NONE', #138, #98, #41, .T. ) ;
#19 = COLOUR_RGB ( '',0.6156862745098039547, 0.6431372549019607199, 0.6745098039215686736 ) ;
#20 = ORIENTED_EDGE ( 'NONE', *, *, #18, .F. ) ;
#21 = AXIS2_PLACEMENT_3D ( 'NONE', #129, #145, #191 ) ;
#22 = VERTEX_POINT ( 'NONE', #54 ) ;
#23 = CARTESIAN_POINT ( 'NONE',  ( 21.20000000000000284, 2.596251214192389164E-15, 2000.000000000000000 ) ) ;
#24 = ORIENTED_EDGE ( 'NONE', *, *, #67, .T. ) ;
#25 = DIRECTION ( 'NONE',  ( -1.000000000000000000, 0.000000000000000000, 0.000000000000000000 ) ) ;
#26 = CYLINDRICAL_SURFACE ( 'NONE', #166, 21.20000000000000284 ) ;
#27 = CARTESIAN_POINT ( 'NONE',  ( 0.000000000000000000, 0.000000000000000000, 0.000000000000000000 ) ) ;
#28 = FACE_OUTER_BOUND ( 'NONE', #205, .T. ) ;
#29 = DIRECTION ( 'NONE',  ( 0.000000000000000000, 0.000000000000000000, 1.000000000000000000 ) ) ;
#30 = ADVANCED_BREP_SHAPE_REPRESENTATION ( 'A_42,4x2-2000', ( #197, #140 ), #123 ) ;
#31 = EDGE_CURVE ( 'NONE', #155, #22, #185, .T. ) ;
#32 = AXIS2_PLACEMENT_3D ( 'NONE', #71, #146, #207 ) ;
#33 = ORIENTED_EDGE ( 'NONE', *, *, #139, .T. ) ;
#34 = CARTESIAN_POINT ( 'NONE',  ( 0.000000000000000000, 0.000000000000000000, 2000.000000000000000 ) ) ;
#35 = VERTEX_POINT ( 'NONE', #208 ) ;
#36 = DIRECTION ( 'NONE',  ( -0.000000000000000000, -0.000000000000000000, -1.000000000000000000 ) ) ;
#37 = ORIENTED_EDGE ( 'NONE', *, *, #128, .F. ) ;
#38 = PLANE ( 'NONE',  #135 ) ;
#39 = CARTESIAN_POINT ( 'NONE',  ( -21.20000000000000284, 0.000000000000000000, 2000.000000000000000 ) ) ;
#40 = AXIS2_PLACEMENT_3D ( 'NONE', #27, #178, #76 ) ;
#41 = CIRCLE ( 'NONE', #11, 21.20000000000000284 ) ;
#42 = FACE_OUTER_BOUND ( 'NONE', #63, .T. ) ;
#43 = ORIENTED_EDGE ( 'NONE', *, *, #153, .F. ) ;
#44 =( LENGTH_UNIT ( ) NAMED_UNIT ( * ) SI_UNIT ( .MILLI., .METRE. ) );
#45 = CIRCLE ( 'NONE', #72, 21.20000000000000284 ) ;
#46 = ORIENTED_EDGE ( 'NONE', *, *, #31, .F. ) ;
#47 = DIRECTION ( 'NONE',  ( 0.000000000000000000, 0.000000000000000000, 1.000000000000000000 ) ) ;
#48 = AXIS2_PLACEMENT_3D ( 'NONE', #90, #194, #16 ) ;
#49 = DIRECTION ( 'NONE',  ( 1.000000000000000000, 0.000000000000000000, 0.000000000000000000 ) ) ;
#50 = CYLINDRICAL_SURFACE ( 'NONE', #158, 19.20000000000000284 ) ;
#51 = AXIS2_PLACEMENT_3D ( 'NONE', #189, #12, #6 ) ;
#52 = FACE_OUTER_BOUND ( 'NONE', #65, .T. ) ;
#53 = PRODUCT_DEFINITION_FORMATION_WITH_SPECIFIED_SOURCE ( 'LIBOVOLNÝ', '', #130, .NOT_KNOWN. ) ;
#54 = CARTESIAN_POINT ( 'NONE',  ( -21.20000000000000284, 0.000000000000000000, 2000.000000000000000 ) ) ;
#55 = LINE ( 'NONE', #211, #94 ) ;
#56 = DIRECTION ( 'NONE',  ( 1.000000000000000000, 0.000000000000000000, 0.000000000000000000 ) ) ;
#57 = EDGE_CURVE ( 'NONE', #35, #204, #7, .T. ) ;
#58 =( NAMED_UNIT ( * ) PLANE_ANGLE_UNIT ( ) SI_UNIT ( $, .RADIAN. ) );
#59 = ORIENTED_EDGE ( 'NONE', *, *, #142, .F. ) ;
#60 = ORIENTED_EDGE ( 'NONE', *, *, #212, .T. ) ;
#61 = DIRECTION ( 'NONE',  ( 1.000000000000000000, 0.000000000000000000, 0.000000000000000000 ) ) ;
#62 = SHAPE_DEFINITION_REPRESENTATION ( #13, #30 ) ;
#63 = EDGE_LOOP ( 'NONE', ( #150, #20 ) ) ;
#64 = PRODUCT_DEFINITION ( 'NEZNÁMÝ', '', #53, #203 ) ;
#65 = EDGE_LOOP ( 'NONE', ( #97, #24, #137, #85 ) ) ;
#66 = ORIENTED_EDGE ( 'NONE', *, *, #31, .T. ) ;
#67 = EDGE_CURVE ( 'NONE', #35, #152, #111, .T. ) ;
#68 = CIRCLE ( 'NONE', #8, 19.20000000000000284 ) ;
#69 = CARTESIAN_POINT ( 'NONE',  ( 0.000000000000000000, 0.000000000000000000, 0.000000000000000000 ) ) ;
#70 = UNCERTAINTY_MEASURE_WITH_UNIT (LENGTH_MEASURE( 1.000000000000000082E-05 ), #75, 'distance_accuracy_value', 'NONE');
#71 = CARTESIAN_POINT ( 'NONE',  ( 0.000000000000000000, 0.000000000000000000, 2000.000000000000000 ) ) ;
#72 = AXIS2_PLACEMENT_3D ( 'NONE', #81, #206, #49 ) ;
#73 = CARTESIAN_POINT ( 'NONE',  ( 19.20000000000000284, 2.351321854362918079E-15, 2000.000000000000000 ) ) ;
#74 = EDGE_CURVE ( 'NONE', #204, #171, #119, .T. ) ;
#75 =( LENGTH_UNIT ( ) NAMED_UNIT ( * ) SI_UNIT ( .MILLI., .METRE. ) );
#76 = DIRECTION ( 'NONE',  ( 1.000000000000000000, 0.000000000000000000, 0.000000000000000000 ) ) ;
#77 = STYLED_ITEM ( 'NONE', ( #184 ), #30 ) ;
#78 = SURFACE_SIDE_STYLE ('',( #163 ) ) ;
#79 = CIRCLE ( 'NONE', #40, 21.20000000000000284 ) ;
#80 = ORIENTED_EDGE ( 'NONE', *, *, #139, .F. ) ;
#81 = CARTESIAN_POINT ( 'NONE',  ( 0.000000000000000000, 0.000000000000000000, 2000.000000000000000 ) ) ;
#82 = ADVANCED_FACE ( 'NONE', ( #52 ), #50, .F. ) ;
#83 = DIRECTION ( 'NONE',  ( -0.000000000000000000, -0.000000000000000000, -1.000000000000000000 ) ) ;
#84 = ORIENTED_EDGE ( 'NONE', *, *, #57, .T. ) ;
#85 = ORIENTED_EDGE ( 'NONE', *, *, #74, .F. ) ;
#86 = DIRECTION ( 'NONE',  ( -0.000000000000000000, -0.000000000000000000, -1.000000000000000000 ) ) ;
#87 =( GEOMETRIC_REPRESENTATION_CONTEXT ( 3 ) GLOBAL_UNCERTAINTY_ASSIGNED_CONTEXT ( ( #124 ) ) GLOBAL_UNIT_ASSIGNED_CONTEXT ( ( #183, #58, #88 ) ) REPRESENTATION_CONTEXT ( 'NONE', 'WORKASPACE' ) );
#88 =( NAMED_UNIT ( * ) SI_UNIT ( $, .STERADIAN. ) SOLID_ANGLE_UNIT ( ) );
#89 =( NAMED_UNIT ( * ) SI_UNIT ( $, .STERADIAN. ) SOLID_ANGLE_UNIT ( ) );
#90 = CARTESIAN_POINT ( 'NONE',  ( 0.000000000000000000, 0.000000000000000000, 0.000000000000000000 ) ) ;
#91 =( NAMED_UNIT ( * ) SI_UNIT ( $, .STERADIAN. ) SOLID_ANGLE_UNIT ( ) );
#92 = ADVANCED_FACE ( 'NONE', ( #143, #209 ), #38, .T. ) ;
#93 = PRODUCT_CONTEXT ( 'NONE', #167, 'mechanical' ) ;
#94 = VECTOR ( 'NONE', #180, 1000.000000000000000 ) ;
#95 = FILL_AREA_STYLE_COLOUR ( '', #4 ) ;
#96 = DIRECTION ( 'NONE',  ( 0.000000000000000000, 0.000000000000000000, 1.000000000000000000 ) ) ;
#97 = ORIENTED_EDGE ( 'NONE', *, *, #57, .F. ) ;
#98 = VERTEX_POINT ( 'NONE', #100 ) ;
#99 = DIRECTION ( 'NONE',  ( -0.000000000000000000, -0.000000000000000000, -1.000000000000000000 ) ) ;
#100 = CARTESIAN_POINT ( 'NONE',  ( -21.20000000000000284, 0.000000000000000000, 0.000000000000000000 ) ) ;
#101 = UNCERTAINTY_MEASURE_WITH_UNIT (LENGTH_MEASURE( 1.000000000000000082E-05 ), #44, 'distance_accuracy_value', 'NONE');
#102 = ORIENTED_EDGE ( 'NONE', *, *, #153, .T. ) ;
#103 = DIRECTION ( 'NONE',  ( 1.000000000000000000, 0.000000000000000000, 0.000000000000000000 ) ) ;
#104 = ADVANCED_FACE ( 'NONE', ( #190 ), #26, .T. ) ;
#105 = CARTESIAN_POINT ( 'NONE',  ( 0.000000000000000000, 0.000000000000000000, 2000.000000000000000 ) ) ;
#106 = DIRECTION ( 'NONE',  ( -1.000000000000000000, 0.000000000000000000, 0.000000000000000000 ) ) ;
#107 = VECTOR ( 'NONE', #15, 1000.000000000000000 ) ;
#108 = ADVANCED_FACE ( 'NONE', ( #122 ), #187, .T. ) ;
#109 = CARTESIAN_POINT ( 'NONE',  ( -19.20000000000000284, 0.000000000000000000, 2000.000000000000000 ) ) ;
#110 = SURFACE_SIDE_STYLE ('',( #134 ) ) ;
#111 = CIRCLE ( 'NONE', #32, 19.20000000000000284 ) ;
#112 = FACE_BOUND ( 'NONE', #5, .T. ) ;
#113 = SURFACE_STYLE_USAGE ( .BOTH. , #110 ) ;
#114 = EDGE_CURVE ( 'NONE', #22, #155, #45, .T. ) ;
#115 = FILL_AREA_STYLE ('',( #95 ) ) ;
#116 = APPLICATION_PROTOCOL_DEFINITION ( 'draft international standard', 'automotive_design', 1998, #182 ) ;
#117 = ORIENTED_EDGE ( 'NONE', *, *, #67, .F. ) ;
#118 = PRESENTATION_LAYER_ASSIGNMENT (  '', '', ( #77 ) ) ;
#119 = CIRCLE ( 'NONE', #21, 19.20000000000000284 ) ;
#120 = SURFACE_STYLE_USAGE ( .BOTH. , #78 ) ;
#121 = ORIENTED_EDGE ( 'NONE', *, *, #74, .T. ) ;
#122 = FACE_OUTER_BOUND ( 'NONE', #127, .T. ) ;
#123 =( GEOMETRIC_REPRESENTATION_CONTEXT ( 3 ) GLOBAL_UNCERTAINTY_ASSIGNED_CONTEXT ( ( #70 ) ) GLOBAL_UNIT_ASSIGNED_CONTEXT ( ( #75, #196, #89 ) ) REPRESENTATION_CONTEXT ( 'NONE', 'WORKASPACE' ) );
#124 = UNCERTAINTY_MEASURE_WITH_UNIT (LENGTH_MEASURE( 1.000000000000000082E-05 ), #183, 'distance_accuracy_value', 'NONE');
#125 = LINE ( 'NONE', #23, #198 ) ;
#126 = CARTESIAN_POINT ( 'NONE',  ( 0.000000000000000000, 0.000000000000000000, 2000.000000000000000 ) ) ;
#127 = EDGE_LOOP ( 'NONE', ( #37, #192, #102, #156 ) ) ;
#128 = EDGE_CURVE ( 'NONE', #155, #138, #125, .T. ) ;
#129 = CARTESIAN_POINT ( 'NONE',  ( 0.000000000000000000, 0.000000000000000000, 0.000000000000000000 ) ) ;
#130 = PRODUCT ( 'A_42,4x2-2000', 'A_42,4x2-2000', '', ( #93 ) ) ;
#131 = PLANE ( 'NONE',  #48 ) ;
#132 = PRESENTATION_LAYER_ASSIGNMENT (  '', '', ( #195 ) ) ;
#133 = PRESENTATION_STYLE_ASSIGNMENT (( #113 ) ) ;
#134 = SURFACE_STYLE_FILL_AREA ( #200 ) ;
#135 = AXIS2_PLACEMENT_3D ( 'NONE', #126, #47, #175 ) ;
#136 = DIRECTION ( 'NONE',  ( 0.000000000000000000, 0.000000000000000000, 1.000000000000000000 ) ) ;
#137 = ORIENTED_EDGE ( 'NONE', *, *, #142, .T. ) ;
#138 = VERTEX_POINT ( 'NONE', #9 ) ;
#139 = EDGE_CURVE ( 'NONE', #171, #204, #164, .T. ) ;
#140 = AXIS2_PLACEMENT_3D ( 'NONE', #1, #96, #61 ) ;
#141 = DIRECTION ( 'NONE',  ( -1.000000000000000000, 0.000000000000000000, 0.000000000000000000 ) ) ;
#142 = EDGE_CURVE ( 'NONE', #152, #171, #55, .T. ) ;
#143 = FACE_OUTER_BOUND ( 'NONE', #201, .T. ) ;
#144 = DIRECTION ( 'NONE',  ( 0.000000000000000000, 0.000000000000000000, 1.000000000000000000 ) ) ;
#145 = DIRECTION ( 'NONE',  ( 0.000000000000000000, 0.000000000000000000, 1.000000000000000000 ) ) ;
#146 = DIRECTION ( 'NONE',  ( 0.000000000000000000, 0.000000000000000000, 1.000000000000000000 ) ) ;
#147 = APPLICATION_PROTOCOL_DEFINITION ( 'draft international standard', 'automotive_design', 1998, #167 ) ;
#148 = CARTESIAN_POINT ( 'NONE',  ( -19.20000000000000284, 0.000000000000000000, 0.000000000000000000 ) ) ;
#149 = CARTESIAN_POINT ( 'NONE',  ( 21.20000000000000284, 2.596251214192389164E-15, 2000.000000000000000 ) ) ;
#150 = ORIENTED_EDGE ( 'NONE', *, *, #188, .F. ) ;
#151 =( GEOMETRIC_REPRESENTATION_CONTEXT ( 3 ) GLOBAL_UNCERTAINTY_ASSIGNED_CONTEXT ( ( #101 ) ) GLOBAL_UNIT_ASSIGNED_CONTEXT ( ( #44, #165, #91 ) ) REPRESENTATION_CONTEXT ( 'NONE', 'WORKASPACE' ) );
#152 = VERTEX_POINT ( 'NONE', #109 ) ;
#153 = EDGE_CURVE ( 'NONE', #22, #98, #176, .T. ) ;
#154 = ORIENTED_EDGE ( 'NONE', *, *, #18, .T. ) ;
#155 = VERTEX_POINT ( 'NONE', #149 ) ;
#156 = ORIENTED_EDGE ( 'NONE', *, *, #188, .T. ) ;
#157 = DIRECTION ( 'NONE',  ( -0.000000000000000000, -0.000000000000000000, -1.000000000000000000 ) ) ;
#158 = AXIS2_PLACEMENT_3D ( 'NONE', #105, #86, #25 ) ;
#159 = CARTESIAN_POINT ( 'NONE',  ( 0.000000000000000000, 0.000000000000000000, 0.000000000000000000 ) ) ;
#160 = MECHANICAL_DESIGN_GEOMETRIC_PRESENTATION_REPRESENTATION (  '', ( #195 ), #87 ) ;
#161 = CYLINDRICAL_SURFACE ( 'NONE', #2, 19.20000000000000284 ) ;
#162 = FILL_AREA_STYLE_COLOUR ( '', #19 ) ;
#163 = SURFACE_STYLE_FILL_AREA ( #115 ) ;
#164 = CIRCLE ( 'NONE', #177, 19.20000000000000284 ) ;
#165 =( NAMED_UNIT ( * ) PLANE_ANGLE_UNIT ( ) SI_UNIT ( $, .RADIAN. ) );
#166 = AXIS2_PLACEMENT_3D ( 'NONE', #169, #36, #141 ) ;
#167 = APPLICATION_CONTEXT ( 'automotive_design' ) ;
#168 = DIRECTION ( 'NONE',  ( -1.000000000000000000, 0.000000000000000000, 0.000000000000000000 ) ) ;
#169 = CARTESIAN_POINT ( 'NONE',  ( 0.000000000000000000, 0.000000000000000000, 2000.000000000000000 ) ) ;
#170 = ADVANCED_FACE ( 'NONE', ( #42, #112 ), #131, .F. ) ;
#171 = VERTEX_POINT ( 'NONE', #148 ) ;
#172 = MECHANICAL_DESIGN_GEOMETRIC_PRESENTATION_REPRESENTATION (  '', ( #77 ), #151 ) ;
#173 = ORIENTED_EDGE ( 'NONE', *, *, #128, .T. ) ;
#174 = CLOSED_SHELL ( 'NONE', ( #193, #104, #92, #170, #108, #82 ) ) ;
#175 = DIRECTION ( 'NONE',  ( 1.000000000000000000, 0.000000000000000000, -0.000000000000000000 ) ) ;
#176 = LINE ( 'NONE', #39, #107 ) ;
#177 = AXIS2_PLACEMENT_3D ( 'NONE', #69, #136, #56 ) ;
#178 = DIRECTION ( 'NONE',  ( 0.000000000000000000, 0.000000000000000000, 1.000000000000000000 ) ) ;
#179 = AXIS2_PLACEMENT_3D ( 'NONE', #34, #99, #168 ) ;
#180 = DIRECTION ( 'NONE',  ( -0.000000000000000000, -0.000000000000000000, -1.000000000000000000 ) ) ;
#181 = DIRECTION ( 'NONE',  ( -0.000000000000000000, -0.000000000000000000, -1.000000000000000000 ) ) ;
#182 = APPLICATION_CONTEXT ( 'automotive_design' ) ;
#183 =( LENGTH_UNIT ( ) NAMED_UNIT ( * ) SI_UNIT ( .MILLI., .METRE. ) );
#184 = PRESENTATION_STYLE_ASSIGNMENT (( #120 ) ) ;
#185 = CIRCLE ( 'NONE', #51, 21.20000000000000284 ) ;
#186 = ORIENTED_EDGE ( 'NONE', *, *, #114, .T. ) ;
#187 = CYLINDRICAL_SURFACE ( 'NONE', #179, 21.20000000000000284 ) ;
#188 = EDGE_CURVE ( 'NONE', #98, #138, #79, .T. ) ;
#189 = CARTESIAN_POINT ( 'NONE',  ( 0.000000000000000000, 0.000000000000000000, 2000.000000000000000 ) ) ;
#190 = FACE_OUTER_BOUND ( 'NONE', #202, .T. ) ;
#191 = DIRECTION ( 'NONE',  ( 1.000000000000000000, 0.000000000000000000, 0.000000000000000000 ) ) ;
#192 = ORIENTED_EDGE ( 'NONE', *, *, #114, .F. ) ;
#193 = ADVANCED_FACE ( 'NONE', ( #28 ), #161, .F. ) ;
#194 = DIRECTION ( 'NONE',  ( 0.000000000000000000, 0.000000000000000000, 1.000000000000000000 ) ) ;
#195 = STYLED_ITEM ( 'NONE', ( #133 ), #197 ) ;
#196 =( NAMED_UNIT ( * ) PLANE_ANGLE_UNIT ( ) SI_UNIT ( $, .RADIAN. ) );
#197 = MANIFOLD_SOLID_BREP ( 'Vysunout tenkostìnný1', #174 ) ;
#198 = VECTOR ( 'NONE', #83, 1000.000000000000000 ) ;
#199 = CARTESIAN_POINT ( 'NONE',  ( 0.000000000000000000, 0.000000000000000000, 2000.000000000000000 ) ) ;
#200 = FILL_AREA_STYLE ('',( #162 ) ) ;
#201 = EDGE_LOOP ( 'NONE', ( #186, #66 ) ) ;
#202 = EDGE_LOOP ( 'NONE', ( #46, #173, #154, #43 ) ) ;
#203 = PRODUCT_DEFINITION_CONTEXT ( 'detailed design', #182, 'design' ) ;
#204 = VERTEX_POINT ( 'NONE', #14 ) ;
#205 = EDGE_LOOP ( 'NONE', ( #60, #84, #80, #59 ) ) ;
#206 = DIRECTION ( 'NONE',  ( 0.000000000000000000, 0.000000000000000000, 1.000000000000000000 ) ) ;
#207 = DIRECTION ( 'NONE',  ( 1.000000000000000000, 0.000000000000000000, 0.000000000000000000 ) ) ;
#208 = CARTESIAN_POINT ( 'NONE',  ( 19.20000000000000284, 2.351321854362918079E-15, 2000.000000000000000 ) ) ;
#209 = FACE_BOUND ( 'NONE', #10, .T. ) ;
#210 = PRODUCT_RELATED_PRODUCT_CATEGORY ( 'part', '', ( #130 ) ) ;
#211 = CARTESIAN_POINT ( 'NONE',  ( -19.20000000000000284, 0.000000000000000000, 2000.000000000000000 ) ) ;
#212 = EDGE_CURVE ( 'NONE', #152, #35, #68, .T. ) ;
#213 = CARTESIAN_POINT ( 'NONE',  ( 0.000000000000000000, 0.000000000000000000, 2000.000000000000000 ) ) ;
#214 = VECTOR ( 'NONE', #157, 1000.000000000000000 ) ;
ENDSEC;
END-ISO-10303-21;
